Búsqueda en el Foro:
Buscar


« Ver tema anterior :: Ver siguiente tema »  
Autor Mensaje
Mensaje10-05-2009, 02:35 (UTC)    
Título del mensaje: alguien se sabe cual es el rasgue de la cancion...

alguien se sabe cual es el rasgue de la cancion si no te hubieras ido de marco antonio solis, ya que como esoty en la orquesta de mi ciudad necesito aprendermela en guitarra pero no se cual es el rasgueo y el cambio de acordes

si alguien sabe porfa diganme
Mensaje10-05-2009, 03:39 (UTC)    
Título del mensaje:

toma pa voz


INTRO:
Am F
e--------------------I------------------
B-------------1------I--0/1--0----------
G------0---2-----2---I---------2--0-----
D---2----------------I---------------2--
A--------------------I------------------
E--------------------I------------------

Am F
e--------------------I------------------
B-------------1------I--0/1--0----------
G-------0---2-----2--I---------2--0-----
D--0/2---------------I---------------2--
A--------------------I------------------
E--------------------I------------------
Am
e-----------------
B-----------------
G------0---2------
D--0/2------------
A-----------------
E-----------------


Am F G C E7
TE EXTRAÑO MAS QUE NUNCA Y N0 SE QUE HACER
Am F G C
DESPIERTO Y TE RECUERDO AL AMANECER
G C E7
ESPERA OTRO DIA POR VIVIR SIN TI
Am
EL ESPEJO NO MIENTE
F G
ME VEO TAN DIFERENTE
C E7
ME HACES FALTA TU


Am F G C E7
LA GENTE PASA Y PASA SIEMPRE TAN IGUAL
Am F G C
EL RITMO DE LA VIDA ME PARECE MAL
G C E7
ERA TAN DIFERENTE CUANDO ESTABAS TU
Am F G C E7
SI QUE ERA DIFERENTE CUANDO ESTABAS TU


G C
NO HAY NADA MAS DIFICIL QUE VIVIR SIN TI
G C
SUFRIENDO EN LA ESPERA DE VERTE LLEGAR
G C
EL FRIO DE MI CUERPO PREGUNTA POR TI
E7 Am
Y NO SE DONDE ESTAS
F G C
SI NO TE HUBIERAS IDO SERIA TAN FELIZ...(X2)


Am F G C E7
LA GENTE PASA Y PASA SIEMPRE TAN IGUAL
Am F G C
EL RITMO DE LA VIDA ME PARECE MAL
G C E7
ERA TAN DIFERENTE CUANDO ESTABAS TU
Am F G C E7
SI QUE ERA DIFERENTE CUANDO ESTABAS TU


G C
NO HAY NADA MAS DIFICIL QUE VIVIR SIN TI
G C
SUFRIENDO EN LA ESPERA DE VERTE LLEGAR
G C
EL FRIO DE MI CUERPO PREGUNTA POR TI
E7 Am
Y NO SE DONDE ESTAS
F G C
SI NO TE HUBIERAS IDO SERIA TAN FELIZ...(X2)
______________

Ë||ËrØ 2010 ÐËÐ¥ÐÂM¥ rË£ØÂÐËÐ
Yo era webmaster. Despues el ataque hack. Ya no me intereso mas pero eso es lo que queria el hack ¡¡No ME RENDIRE!!
Mensaje10-05-2009, 04:44 (UTC)    
Título del mensaje:

no me entendiste, yo preguntaba cual es el rasgueo, no la cancion completa, ya que eso ya lo tengo, pero es de una manera diferente
Mostrar mensajes anteriores:   


Powered by phpBB © 2001, 2005 phpBB Group